Табулатура Nofx | Green Corn гитара табулатуры уроки тексты песен Nofx текст lyrics песня аккорды песни ноты нота электрогитара струна  
   А Б В Г Д Е Ж З И К Л М Н О П Р С Т У Ф Х Ч Ш Ы Э Ю Я       Разные песни
1-9 A B C D E F G H I J K L M N O P Q R S T U V W Y Z      Все исполнители in english

    



группа Nofx, Табулатура песни Green Corn

Работа в Европе для граждан РФ, Украины, СНГ

  • минимальная зарплата $500.
  • виза и контракт на полгода, возможно продление
  • проживание оплачивает работодатель
  • нужен только загранпаспорт
  • оформление 190 €
  • данное предложение - отличная возможность эмигрировать в Европу и закрепиться здесь навсегда.

  • Мы свяжемся с Вами по WhatsApp или Viber и ответим на любые вопросы.
    на нашем сайте можно почитать подробнее »

    Группа: Nofx - другие аккорды (72),   диски (12),   фотографии (1)
    Табулатура песни: Green Corn
    Просмотров: 1763




        
    
    #----------------------------------PLEASE NOTE---------------------------------#
    #This file is the author's own work and represents their interpretation of the #
    #song. You may only use this file for private study, scholarship, or research. #
    #------------------------------------------------------------------------------##
    Date: Fri, 4 Aug 1995 15:20:42 -0600 (MDT)
    From: Jeff Mutt 
    Subject: Green Corn by NOFX
    
    okay... this is just the intro cause for some reason I just can't figure 
    out the rest of the song...oh ...and the outro
    
    e-|------------------------------------------
    B-|------------------------------------------
    G-|-------10-11-11-11--14-12-14-7-5--7-5---5-
    D-|-11-10-10-11-11-11--14-12-14-7-5--7-5-7-5-
    A-|-11-10--8--9--9--9--12-10-12-5-3--5-3-7-3-
    E-|--9--8--------------------------------5---
    
    
    e-|---------------------------------------
    B-|---------------------------------------
    G-|-14-12-14--7-5-7-5---9-10-9-5--5-5-5---
    D-|-14-12-14--7-5-7-5-7-9-10-9-5--5-5-5-7-
    A-|-12-10-12--5-3-5-3-7-7--8-7-3--3-3-3-7-(let ring)
    E-|-------------------5-----------------5-
    
    e-|-----------------------------------------------------------------
    B-|-----------------------------------------------------------------
    G-|-------------5-2-------------------------------------------------
    D-|-3-2-3-3-3-3-5-2---3-2-3-3-3-3--7-7-7-7--5-5-5-5-2-2-2-2-2-2-2-2-
    A-|-3-2-3-3-3-3-3-0---3-2-3-3-3-3--7-7-7-7--5-5-5-5-2-2-2-2-2-2-2-2-
    E-|-1-0-1-1-1-1-------1-0-1-1-1-1--5-5-5-5--3-3-3-3-0-0-0-0-0-0-0-0-
    
    
    someone please figure out the verse for me...
    
    okay... they play the first half of the intro in the middle of the song 
    exept they add one chord but I'll tab it out for  you anyway...
    
    e-|-----------------------------------------------------------
    B-|-----------------------------------------------------------
    G-|-14-12-14-7-5-7-5---5-14-12-14-7-5-7-5---9-10-9-7-5--5-5-5-
    D-|-14-12-14-7-5-7-5-7-5-14-12-14-7-5-7-5-7-9-10-9-7-5--5-5-5-
    A-|-12-10-12-5-3-5-3-7-3-12-10-12-5-3-5-3-7-7--8-7-5-3--3-3-3-
    E-|------------------5--------------------5-------------------
    
    heres the ending part
    
    e-|----------------------------------------------------------------
    B-|----------------------------------------------------------------
    G-|-14-12-14-7-5--14-12-14-7-5---14-12-14-7-5-7-5------------------
    D-|-14-12-14-7-5--14-12-14-7-5---14-12-14-7-5-7-5-7----------------
    A-|-12-10-12-5-3--12-10-12-5-3---12-10-12-5-3-5-3-7----------------
    E-|-----------------------------------------------5----------------
    
    okay... I'm not sure if I was tuned in the right key when I figured this 
    out but oh well... but I'd be really happy if someone figured out the 
    rest of the song and posted it on here... or e-mailed it to me... 
    JJM@nucleus.com
    
    
    
        

    поиск лекарств
    список лекарств






    О сайтеАккордыХит-парадПоискУроки ФорумыИщу песню
    ПрограммыСвежачок-сПодпискаСтатьи
    Яндекс.Метрика