Табулатура Nofx | Buggly Eyes гитара табулатуры уроки тексты песен Nofx текст lyrics песня аккорды песни ноты нота электрогитара струна  
   А Б В Г Д Е Ж З И К Л М Н О П Р С Т У Ф Х Ч Ш Ы Э Ю Я       Разные песни
1-9 A B C D E F G H I J K L M N O P Q R S T U V W Y Z      Все исполнители in english

    



группа Nofx, Табулатура песни Buggly Eyes

Продолжаем грести бабос на ботах в Telegram.
Только в этот раз есть вариант автоматизировать это дело, привлекая рефералов. Вы можете заработать если »

Группа: Nofx - другие аккорды (72),   диски (12),   фотографии (1)
Табулатура песни: Buggly Eyes
Просмотров: 1206




    
#----------------------------------PLEASE NOTE---------------------------------#
#This file is the author's own work and represents their interpretation of the #
#song. You may only use this file for private study, scholarship, or research. #
#------------------------------------------------------------------------------#
#
Date: 	Sun, 4 Feb 1996 09:15:22 -0400
From: David Kaufman 
Subject: TAB:  by 

Song: Buggly Eyes
By: NOFX
Album: I Heard They Suck Live
Tabbed by: Dave Kaufman (ak002@ccn.cs.dal.ca)

---------------------------------------------------------------------------
---------------------------------------------------------------------------
---------------------------------------------------------------------------
-------------------------------------------------------5-----5-------------
-10--10-10---9--9-9---7--7-7-7-7-7---3--3-3---5--5-5---3--5--3-------------
-8---8--8----7--7-7---5--5-5-5-5-5---1--1-1---3--3-3------3----------------

                            repeat two times

---------------------------------------------------------------------------
---------------------------------------------------------------------------
---------------------------------------------------------------------------
----------------------9--9-9-9-9-9-----------------------------------------
-10--10-10-10-10-10---7--7-7-7-7-7---7--7-7-7-7-7---3--3-3---5--5-5--------
-8---8--8--8--8--8-------------------5--5-5-5-5-5---1--1-1---3--3-3--------

                          repeat first part once
    
                   Dave Kaufman (ak002@ccn.cs.dal.ca)


    

поиск лекарств
список лекарств






О сайтеАккордыХит-парадПоискУроки ФорумыИщу песню
ПрограммыСвежачок-сПодпискаСтатьи
Яндекс.Метрика