Табулатура Paul Mccartney | Junk гитара табулатуры уроки тексты песен Paul Mccartney текст lyrics песня аккорды песни ноты нота электрогитара струна  
   А Б В Г Д Е Ж З И К Л М Н О П Р С Т У Ф Х Ч Ш Ы Э Ю Я       Разные песни
1-9 A B C D E F G H I J K L M N O P Q R S T U V W Y Z      Все исполнители in english

    



группа Paul Mccartney, Табулатура песни Junk

Работа в Европе для граждан РФ, Украины, СНГ

  • минимальная зарплата $500.
  • виза и контракт на полгода, возможно продление
  • проживание оплачивает работодатель
  • нужен только загранпаспорт
  • оформление 190 €
  • данное предложение - отличная возможность эмигрировать в Европу и закрепиться здесь навсегда.

  • Мы свяжемся с Вами по WhatsApp или Viber и ответим на любые вопросы.
    на нашем сайте можно почитать подробнее »

    Группа: Paul Mccartney - другие аккорды (209),   об исполнителе (5 статей),   диски (27),   фотографии (34)
    Табулатура песни: Junk
    Просмотров: 1960




        
    
    #----------------------------------PLEASE NOTE---------------------------------#
    #This file is the author's own work and represents their interpretation of the #
    #song. You may only use this file for private study, scholarship, or research. #
    #------------------------------------------------------------------------------##
    #
    
    Junk by Paul McCartney
    
    After not being able to find tab for this, I asked my dad (who knows a lot
    of older songs) if he could play this.  He showed me and I transcribed it.
    No garantees that this is perfect, so listen to the recording and pick out
    the details.  Also, spacing DOES NOT indicate timing.  The notes are 
    mostly accurate but I may have inadvertently added/missed notes.  
    If there are any huge mistakes let me know.
    
    There are only two basic riffs.  Paul puts in slight variations here and
    there through out the various repeats.
       
    
    Riff 1:
    
       F#m        C#7          A            D    Dmaj7
    |-----------------------------------2---2----2--4-5-7--2-------5--
    |--2-3--2--------2---------2--3--2------3----2-----------2---2----
    |-------------4-----4------2------------2----2---------2---2------
    |----------------------3---------------------0--------------------
    |---------2---4------------0--------------------------------------
    |--2--------------------------------------------------------------
    
    A
    ------------------|
    -3p2-2--2h3--3p2--|
    -2---2--2----2----|
    -2---2--2----2----|
    ------------------|
    ------------------|
    
    Riff 2
    
       D7sus4     A         E      *  A
    |--3-------3----------------------------0--|
    |----1---1----3p2-------0--2--3---2--3-----|
    |--2---2------2---2-----1--1--1---2--2--2--|
    |--0----------------2------2--2---2--2-----|
    |-------------0---------2---------------0--|
    |------------------------------------------|
    
    After repeating riff 2, go back to riff 1 after playing to the star.
    
    That's about all there is to it.
    
    As always, feedback (good/bad/comment/suggestion/etc.) is appreciated.
    
    OK, while I'm at it:
    
    "The Lovely Linda" and "That Would Be Something" are both just 2 chords.
    
    F and Bb
    
    The intro for "That Would Be Something" is something like this (this is 
    simplified and a close guest at best, ie - don't expect too much :)
    
    |---------------------||--------------------||----------------------
    |---------------------||--------------------||----------------------
    |---5--3--2--3-3--2--.||.-6h-7--7----------.||----------------------
    |--------------------.||.-----------5b--3--.||----------------------
    |---------------------||--------------------||----------------------
    |---------------------||--------------------||----------------------
    
    -- 
    
    --Mike
    
    fmrtst1@smtp.geisinger.edu
    
        

    найти лекарство
    список лекарств

    Нотариусы г. Москвы

    Лицензирование и сертификация. Новости автомира.

    kruglie-sutki.ru








    О сайтеАккордыХит-парадПоискУроки ФорумыИщу песню
    ПрограммыСвежачок-сПодпискаСтатьи
    Яндекс.Метрика