tab Nightwish | Nemo
   
 
1-9 A B C D E F G H I J K L M N O P Q R S T U V W Y Z     

Nightwish - other mp3, lyrics & tabs (414),   discography (6),   photos (25)
tab of song: Nemo
Views: 1598




    
                                     Nemo                                       

                                                                                                              
------|------|------|------------------------|-----------------------|
------|------|------|--17----20--17~---------|-----------------------|
------|------|------|------------------------|-------------------14--|
------|------|------|------------------------|------------x--17------|
------|------|------|------------------------|-----------------------|
------|------|------|------------------------|-----------------------|

                                                                
------------------------------|--------------------------------|
------------------------------|--------------------------------|
--16----19----------19--16~---|----16--16--14--14--19--19--16--|
------------17h-19------------|----17--17--12--12--19--19--17--|
------------------------------|--------------------------------|
------------------------------|--------------------------------|

                                                                    

Продолжаем грести бабос на ботах в Telegram.
Только в этот раз есть вариант автоматизировать это дело, привлекая рефералов. Вы можете заработать если »

------------------------------------------------|------------------| ------------------------------------------------|------------------| ------16-16-19-16-18-16-15-16-15----------------|------------------| --19b----------------------------19-18-17-14-12b|------------------| ------------------------------------------------|------------------| ------------------------------------------------|------------------| --------------------------|------------------------|----------|----------| --------------------------|----------17------------|----------|----------| -----------------------14-|--16~---------19~-------|----------|----------| --------17--14------17----|------------------------|----------|----------| --------------------------|------------------------|----------|----------| --------------------------|------------------------|----------|----------|






















Рейтинг@Mail.ru